  0
SECTION
  2
HEADER
  9
$ACADVER
  1
AC1014
  9
$HANDSEED
  5
FFFF
  9
$MEASUREMENT
 70
     1
  0
ENDSEC
  0
SECTION
  2
TABLES
  0
TABLE
  2
VPORT
  5
8
330
0
100
AcDbSymbolTable
 70
     4
  0
VPORT
  5
2E
330
8
100
AcDbSymbolTableRecord
100
AcDbViewportTableRecord
  2
*ACTIVE
 70
     0
 10
0.0
 20
0.0
 11
1.0
 21
1.0
 12
210.0
 22
148.5
 13
0.0
 23
0.0
 14
10.0
 24
10.0
 15
10.0
 25
10.0
 16
0.0
 26
0.0
 36
1.0
 17
0.0
 27
0.0
 37
0.0
 40
341.0
 41
1.24
 42
50.0
 43
0.0
 44
0.0
 50
0.0
 51
0.0
 71
     0
 72
   100
 73
     1
 74
     3
 75
     0
 76
     0
 77
     0
 78
     0
  0
ENDTAB
  0
TABLE
  2
LTYPE
  5
5
330
0
100
AcDbSymbolTable
 70
     1
  0
LTYPE
  5
14
330
5
100
AcDbSymbolTableRecord
100
AcDbLinetypeTableRecord
  2
BYBLOCK
 70
     0
  3

 72
    65
 73
     0
 40
0.0
  0
LTYPE
  5
15
330
5
100
AcDbSymbolTableRecord
100
AcDbLinetypeTableRecord
  2
BYLAYER
 70
     0
  3

 72
    65
 73
     0
 40
0.0
  0
LTYPE
  5
16
330
5
100
AcDbSymbolTableRecord
100
AcDbLinetypeTableRecord
  2
CONTINUOUS
 70
     0
  3
Solid line
 72
    65
 73
     0
 40
0.0
  0
ENDTAB
  0
TABLE
  2
LAYER
  5
2
100
AcDbSymbolTable
 70
2
  0
LAYER
  5
50
100
AcDbSymbolTableRecord
100
AcDbLayerTableRecord
  2
0
 70
0
  6
CONTINUOUS
  0
LAYER
  5
51
100
AcDbSymbolTableRecord
100
AcDbLayerTableRecord
  2
Livello_1
 70
0
  6
CONTINUOUS
  0
ENDTAB
  0
TABLE
  2
STYLE
  5
3
330
0
100
AcDbSymbolTable
 70
     1
  0
STYLE
  5
11
330
3
100
AcDbSymbolTableRecord
100
AcDbTextStyleTableRecord
  2
STANDARD
 70
     0
 40
0.0
 41
1.0
 50
0.0
 71
     0
 42
2.5
  3
txt
  4

  0
ENDTAB
  0
TABLE
  2
VIEW
  5
6
330
0
100
AcDbSymbolTable
 70
     0
  0
ENDTAB
  0
TABLE
  2
UCS
  5
7
330
0
100
AcDbSymbolTable
 70
     0
  0
ENDTAB
  0
TABLE
  2
APPID
  5
9
330
0
100
AcDbSymbolTable
 70
     2
  0
APPID
  5
12
330
9
100
AcDbSymbolTableRecord
100
AcDbRegAppTableRecord
  2
ACAD
 70
     0
  0
ENDTAB
  0
TABLE
  2
DIMSTYLE
  5
A
330
0
100
AcDbSymbolTable
 70
     1
  0
DIMSTYLE
105
27
330
A
100
AcDbSymbolTableRecord
100
AcDbDimStyleTableRecord
  2
ISO-25
 70
     0
  3

  4

  5

  6

  7

 40
1.0
 41
2.5
 42
0.625
 43
3.75
 44
1.25
 45
0.0
 46
0.0
 47
0.0
 48
0.0
140
2.5
141
2.5
142
0.0
143
0.03937007874016
144
1.0
145
0.0
146
1.0
147
0.625
 71
     0
 72
     0
 73
     0
 74
     0
 75
     0
 76
     0
 77
     1
 78
     8
170
     0
171
     3
172
     1
173
     0
174
     0
175
     0
176
     0
177
     0
178
     0
270
     2
271
     2
272
     2
273
     2
274
     3
340
11
275
     0
280
     0
281
     0
282
     0
283
     0
284
     8
285
     0
286
     0
287
     3
288
     0
  0
ENDTAB
  0
TABLE
  2
BLOCK_RECORD
  5
1
330
0
100
AcDbSymbolTable
 70
     1
  0
BLOCK_RECORD
  5
1F
330
1
100
AcDbSymbolTableRecord
100
AcDbBlockTableRecord
  2
*MODEL_SPACE
  0
BLOCK_RECORD
  5
1B
330
1
100
AcDbSymbolTableRecord
100
AcDbBlockTableRecord
  2
*PAPER_SPACE
  0
ENDTAB
  0
ENDSEC
  0
SECTION
  2
BLOCKS
  0
BLOCK
  5
20
330
1F
100
AcDbEntity
  8
0
100
AcDbBlockBegin
  2
*MODEL_SPACE
 70
     0
 10
0.0
 20
0.0
 30
0.0
  3
*MODEL_SPACE
  1

  0
ENDBLK
  5
21
330
1F
100
AcDbEntity
  8
0
100
AcDbBlockEnd
  0
BLOCK
  5
1C
330
1B
100
AcDbEntity
 67
     1
  8
0
100
AcDbBlockBegin
  2
*PAPER_SPACE
  1

  0
ENDBLK
  5
1D
330
1B
100
AcDbEntity
 67
     1
  8
0
100
AcDbBlockEnd
  0
ENDSEC
  0
SECTION
  2
ENTITIES
  0
LINE
  5
100
100
AcDbEntity
  8
Livello_1
 62
1
100
AcDbLine
 10
48.586150
 20
266.144331
 30
0.0
 11
71.364419
 21
266.144331
 31
0.0
  0
SPLINE
  5
101
100
AcDbEntity
  8
Livello_1
 62
1
100
AcDbSpline
 70
8
 71
3
 72
8
 73
4
 74
0
 40
0
 40
0
 40
0
 40
0
 40
1
 40
1
 40
1
 40
1
 10
71.364419
 20
266.144331
 30
0.0
 10
74.444219
 20
266.144331
 30
0.0
 10
76.923626
 20
263.664924
 30
0.0
 10
76.923626
 20
260.585126
 30
0.0
  0
LINE
  5
102
100
AcDbEntity
  8
Livello_1
 62
1
100
AcDbLine
 10
76.923626
 20
260.585126
 30
0.0
 11
76.923626
 21
251.803539
 31
0.0
  0
SPLINE
  5
103
100
AcDbEntity
  8
Livello_1
 62
1
100
AcDbSpline
 70
8
 71
3
 72
8
 73
4
 74
0
 40
0
 40
0
 40
0
 40
0
 40
1
 40
1
 40
1
 40
1
 10
76.923626
 20
251.803539
 30
0.0
 10
76.923626
 20
248.723738
 30
0.0
 10
74.444219
 20
246.244331
 30
0.0
 10
71.364419
 20
246.244331
 30
0.0
  0
LINE
  5
104
100
AcDbEntity
  8
Livello_1
 62
1
100
AcDbLine
 10
71.364419
 20
246.244331
 30
0.0
 11
48.586150
 21
246.244331
 31
0.0
  0
SPLINE
  5
105
100
AcDbEntity
  8
Livello_1
 62
1
100
AcDbSpline
 70
8
 71
3
 72
8
 73
4
 74
0
 40
0
 40
0
 40
0
 40
0
 40
1
 40
1
 40
1
 40
1
 10
48.586150
 20
246.244331
 30
0.0
 10
45.506349
 20
246.244331
 30
0.0
 10
43.026942
 20
248.723738
 30
0.0
 10
43.026942
 20
251.803539
 30
0.0
  0
LINE
  5
106
100
AcDbEntity
  8
Livello_1
 62
1
100
AcDbLine
 10
43.026942
 20
251.803539
 30
0.0
 11
43.026942
 21
260.585126
 31
0.0
  0
SPLINE
  5
107
100
AcDbEntity
  8
Livello_1
 62
1
100
AcDbSpline
 70
8
 71
3
 72
8
 73
4
 74
0
 40
0
 40
0
 40
0
 40
0
 40
1
 40
1
 40
1
 40
1
 10
43.026942
 20
260.585126
 30
0.0
 10
43.026942
 20
263.664924
 30
0.0
 10
45.506349
 20
266.144331
 30
0.0
 10
48.586150
 20
266.144331
 30
0.0
  0
LINE
  5
108
100
AcDbEntity
  8
Livello_1
 62
1
100
AcDbLine
 10
48.586150
 20
266.144331
 30
0.0
 11
48.586150
 21
266.144331
 31
0.0
  0
SPLINE
  5
109
100
AcDbEntity
  8
Livello_1
 62
3
100
AcDbSpline
 70
8
 71
3
 72
8
 73
4
 74
0
 40
0
 40
0
 40
0
 40
0
 40
1
 40
1
 40
1
 40
1
 10
52.062703
 20
256.194331
 30
0.0
 10
52.062703
 20
255.073275
 30
0.0
 10
51.153908
 20
254.164486
 30
0.0
 10
50.032852
 20
254.164486
 30
0.0
  0
SPLINE
  5
10a
100
AcDbEntity
  8
Livello_1
 62
3
100
AcDbSpline
 70
8
 71
3
 72
8
 73
4
 74
0
 40
0
 40
0
 40
0
 40
0
 40
1
 40
1
 40
1
 40
1
 10
50.032852
 20
254.164486
 30
0.0
 10
48.911802
 20
254.164486
 30
0.0
 10
48.003007
 20
255.073275
 30
0.0
 10
48.003007
 20
256.194331
 30
0.0
  0
SPLINE
  5
10b
100
AcDbEntity
  8
Livello_1
 62
3
100
AcDbSpline
 70
8
 71
3
 72
8
 73
4
 74
0
 40
0
 40
0
 40
0
 40
0
 40
1
 40
1
 40
1
 40
1
 10
48.003007
 20
256.194331
 30
0.0
 10
48.003007
 20
257.315382
 30
0.0
 10
48.911802
 20
258.224176
 30
0.0
 10
50.032852
 20
258.224176
 30
0.0
  0
SPLINE
  5
10c
100
AcDbEntity
  8
Livello_1
 62
3
100
AcDbSpline
 70
8
 71
3
 72
8
 73
4
 74
0
 40
0
 40
0
 40
0
 40
0
 40
1
 40
1
 40
1
 40
1
 10
50.032852
 20
258.224176
 30
0.0
 10
51.153908
 20
258.224176
 30
0.0
 10
52.062703
 20
257.315382
 30
0.0
 10
52.062703
 20
256.194331
 30
0.0
  0
LINE
  5
10d
100
AcDbEntity
  8
Livello_1
 62
3
100
AcDbLine
 10
52.062703
 20
256.194331
 30
0.0
 11
52.062703
 21
256.194331
 31
0.0
  0
SPLINE
  5
10e
100
AcDbEntity
  8
Livello_1
 62
3
100
AcDbSpline
 70
8
 71
3
 72
8
 73
4
 74
0
 40
0
 40
0
 40
0
 40
0
 40
1
 40
1
 40
1
 40
1
 10
72.018829
 20
256.194331
 30
0.0
 10
72.018829
 20
255.073275
 30
0.0
 10
71.110035
 20
254.164486
 30
0.0
 10
69.988979
 20
254.164486
 30
0.0
  0
SPLINE
  5
10f
100
AcDbEntity
  8
Livello_1
 62
3
100
AcDbSpline
 70
8
 71
3
 72
8
 73
4
 74
0
 40
0
 40
0
 40
0
 40
0
 40
1
 40
1
 40
1
 40
1
 10
69.988979
 20
254.164486
 30
0.0
 10
68.867928
 20
254.164486
 30
0.0
 10
67.959134
 20
255.073275
 30
0.0
 10
67.959134
 20
256.194331
 30
0.0
  0
SPLINE
  5
110
100
AcDbEntity
  8
Livello_1
 62
3
100
AcDbSpline
 70
8
 71
3
 72
8
 73
4
 74
0
 40
0
 40
0
 40
0
 40
0
 40
1
 40
1
 40
1
 40
1
 10
67.959134
 20
256.194331
 30
0.0
 10
67.959134
 20
257.315382
 30
0.0
 10
68.867928
 20
258.224176
 30
0.0
 10
69.988979
 20
258.224176
 30
0.0
  0
SPLINE
  5
111
100
AcDbEntity
  8
Livello_1
 62
3
100
AcDbSpline
 70
8
 71
3
 72
8
 73
4
 74
0
 40
0
 40
0
 40
0
 40
0
 40
1
 40
1
 40
1
 40
1
 10
69.988979
 20
258.224176
 30
0.0
 10
71.110035
 20
258.224176
 30
0.0
 10
72.018829
 20
257.315382
 30
0.0
 10
72.018829
 20
256.194331
 30
0.0
  0
LINE
  5
112
100
AcDbEntity
  8
Livello_1
 62
3
100
AcDbLine
 10
72.018829
 20
256.194331
 30
0.0
 11
72.018829
 21
256.194331
 31
0.0
  0
LINE
  5
113
100
AcDbEntity
  8
Livello_1
 62
5
100
AcDbLine
 10
73.060278
 20
266.096665
 30
0.0
 11
73.060278
 21
259.049929
 31
0.0
  0
SPLINE
  5
114
100
AcDbEntity
  8
Livello_1
 62
5
100
AcDbSpline
 70
8
 71
3
 72
8
 73
4
 74
0
 40
0
 40
0
 40
0
 40
0
 40
1
 40
1
 40
1
 40
1
 10
73.060278
 20
259.049929
 30
0.0
 10
72.293345
 20
259.875285
 30
0.0
 10
71.206654
 20
260.390485
 30
0.0
 10
69.991111
 20
260.390485
 30
0.0
  0
SPLINE
  5
115
100
AcDbEntity
  8
Livello_1
 62
5
100
AcDbSpline
 70
8
 71
3
 72
8
 73
4
 74
0
 40
0
 40
0
 40
0
 40
0
 40
1
 40
1
 40
1
 40
1
 10
69.991111
 20
260.390485
 30
0.0
 10
67.671515
 20
260.390485
 30
0.0
 10
65.793056
 20
258.512025
 30
0.0
 10
65.793056
 20
256.192429
 30
0.0
  0
SPLINE
  5
116
100
AcDbEntity
  8
Livello_1
 62
5
100
AcDbSpline
 70
8
 71
3
 72
8
 73
4
 74
0
 40
0
 40
0
 40
0
 40
0
 40
1
 40
1
 40
1
 40
1
 10
65.793056
 20
256.192429
 30
0.0
 10
65.793056
 20
253.872833
 30
0.0
 10
67.671515
 20
251.994374
 30
0.0
 10
69.991111
 20
251.994374
 30
0.0
  0
SPLINE
  5
117
100
AcDbEntity
  8
Livello_1
 62
5
100
AcDbSpline
 70
8
 71
3
 72
8
 73
4
 74
0
 40
0
 40
0
 40
0
 40
0
 40
1
 40
1
 40
1
 40
1
 10
69.991111
 20
251.994374
 30
0.0
 10
72.310707
 20
251.994374
 30
0.0
 10
74.255983
 20
253.765925
 30
0.0
 10
74.255983
 20
256.085521
 30
0.0
  0
SPLINE
  5
118
100
AcDbEntity
  8
Livello_1
 62
5
100
AcDbSpline
 70
8
 71
3
 72
8
 73
4
 74
0
 40
0
 40
0
 40
0
 40
0
 40
1
 40
1
 40
1
 40
1
 10
74.255983
 20
256.085521
 30
0.0
 10
74.251016
 20
259.318743
 30
0.0
 10
74.259736
 20
262.792049
 30
0.0
 10
74.259736
 20
266.096665
 30
0.0
  0
LINE
  5
119
100
AcDbEntity
  8
Livello_1
 62
5
100
AcDbLine
 10
74.259736
 20
266.096665
 30
0.0
 11
73.060278
 21
266.096665
 31
0.0
  0
LINE
  5
11a
100
AcDbEntity
  8
Livello_1
 62
5
100
AcDbLine
 10
56.444444
 20
266.414165
 30
0.0
 11
56.444444
 21
250.018818
 31
0.0
  0
LINE
  5
11b
100
AcDbEntity
  8
Livello_1
 62
5
100
AcDbLine
 10
56.444444
 20
250.018818
 30
0.0
 11
46.954722
 21
250.018818
 31
0.0
  0
LINE
  5
11c
100
AcDbEntity
  8
Livello_1
 62
5
100
AcDbLine
 10
46.954722
 20
250.018818
 30
0.0
 11
46.954722
 21
253.343749
 31
0.0
  0
SPLINE
  5
11d
100
AcDbEntity
  8
Livello_1
 62
5
100
AcDbSpline
 70
8
 71
3
 72
8
 73
4
 74
0
 40
0
 40
0
 40
0
 40
0
 40
1
 40
1
 40
1
 40
1
 10
46.954722
 20
253.343749
 30
0.0
 10
47.632854
 20
252.461130
 30
0.0
 10
48.813963
 20
251.994374
 30
0.0
 10
50.032708
 20
251.994374
 30
0.0
  0
SPLINE
  5
11e
100
AcDbEntity
  8
Livello_1
 62
5
100
AcDbSpline
 70
8
 71
3
 72
8
 73
4
 74
0
 40
0
 40
0
 40
0
 40
0
 40
1
 40
1
 40
1
 40
1
 10
50.032708
 20
251.994374
 30
0.0
 10
52.352304
 20
251.994374
 30
0.0
 10
54.230764
 20
253.872833
 30
0.0
 10
54.230764
 20
256.192429
 30
0.0
  0
SPLINE
  5
11f
100
AcDbEntity
  8
Livello_1
 62
5
100
AcDbSpline
 70
8
 71
3
 72
8
 73
4
 74
0
 40
0
 40
0
 40
0
 40
0
 40
1
 40
1
 40
1
 40
1
 10
54.230764
 20
256.192429
 30
0.0
 10
54.230764
 20
258.512025
 30
0.0
 10
52.352304
 20
260.390485
 30
0.0
 10
50.032708
 20
260.390485
 30
0.0
  0
SPLINE
  5
120
100
AcDbEntity
  8
Livello_1
 62
5
100
AcDbSpline
 70
8
 71
3
 72
8
 73
4
 74
0
 40
0
 40
0
 40
0
 40
0
 40
1
 40
1
 40
1
 40
1
 10
50.032708
 20
260.390485
 30
0.0
 10
47.713113
 20
260.390485
 30
0.0
 10
45.834653
 20
258.512025
 30
0.0
 10
45.834653
 20
256.192429
 30
0.0
  0
SPLINE
  5
121
100
AcDbEntity
  8
Livello_1
 62
5
100
AcDbSpline
 70
8
 71
3
 72
8
 73
4
 74
0
 40
0
 40
0
 40
0
 40
0
 40
1
 40
1
 40
1
 40
1
 10
45.834653
 20
256.192429
 30
0.0
 10
45.834653
 20
256.177359
 30
0.0
 10
45.834495
 20
256.163369
 30
0.0
 10
45.834653
 20
256.148332
 30
0.0
  0
LINE
  5
122
100
AcDbEntity
  8
Livello_1
 62
5
100
AcDbLine
 10
45.834653
 20
256.148332
 30
0.0
 11
45.844361
 21
256.166140
 31
0.0
  0
LINE
  5
123
100
AcDbEntity
  8
Livello_1
 62
5
100
AcDbLine
 10
45.844361
 20
256.166140
 30
0.0
 11
45.822094
 21
254.336062
 31
0.0
  0
LINE
  5
124
100
AcDbEntity
  8
Livello_1
 62
5
100
AcDbLine
 10
45.822094
 20
254.336062
 30
0.0
 11
45.799827
 21
252.505980
 31
0.0
  0
LINE
  5
125
100
AcDbEntity
  8
Livello_1
 62
5
100
AcDbLine
 10
45.799827
 20
252.505980
 30
0.0
 11
45.777559
 21
250.675902
 31
0.0
  0
LINE
  5
126
100
AcDbEntity
  8
Livello_1
 62
5
100
AcDbLine
 10
45.777559
 20
250.675902
 30
0.0
 11
45.755292
 21
248.845824
 31
0.0
  0
LINE
  5
127
100
AcDbEntity
  8
Livello_1
 62
5
100
AcDbLine
 10
45.755292
 20
248.845824
 30
0.0
 11
46.460847
 21
248.845824
 31
0.0
  0
LINE
  5
128
100
AcDbEntity
  8
Livello_1
 62
5
100
AcDbLine
 10
46.460847
 20
248.845824
 30
0.0
 11
46.460847
 21
248.819379
 31
0.0
  0
LINE
  5
129
100
AcDbEntity
  8
Livello_1
 62
5
100
AcDbLine
 10
46.460847
 20
248.819379
 30
0.0
 11
61.206959
 21
248.819379
 31
0.0
  0
LINE
  5
12a
100
AcDbEntity
  8
Livello_1
 62
5
100
AcDbLine
 10
61.206959
 20
248.819379
 30
0.0
 11
61.206959
 21
248.810574
 31
0.0
  0
LINE
  5
12b
100
AcDbEntity
  8
Livello_1
 62
5
100
AcDbLine
 10
61.206959
 20
248.810574
 30
0.0
 11
62.406403
 21
248.810574
 31
0.0
  0
LINE
  5
12c
100
AcDbEntity
  8
Livello_1
 62
5
100
AcDbLine
 10
62.406403
 20
248.810574
 30
0.0
 11
62.406403
 21
251.826824
 31
0.0
  0
SPLINE
  5
12d
100
AcDbEntity
  8
Livello_1
 62
5
100
AcDbSpline
 70
8
 71
3
 72
8
 73
4
 74
0
 40
0
 40
0
 40
0
 40
0
 40
1
 40
1
 40
1
 40
1
 10
62.406403
 20
251.826824
 30
0.0
 10
62.787129
 20
252.035448
 30
0.0
 10
63.050222
 20
252.440313
 30
0.0
 10
63.050222
 20
252.920435
 30
0.0
  0
LINE
  5
12e
100
AcDbEntity
  8
Livello_1
 62
5
100
AcDbLine
 10
63.050222
 20
252.920435
 30
0.0
 11
63.050222
 21
259.323352
 31
0.0
  0
SPLINE
  5
12f
100
AcDbEntity
  8
Livello_1
 62
5
100
AcDbSpline
 70
8
 71
3
 72
8
 73
4
 74
0
 40
0
 40
0
 40
0
 40
0
 40
1
 40
1
 40
1
 40
1
 10
63.050222
 20
259.323352
 30
0.0
 10
63.050222
 20
259.786027
 30
0.0
 10
62.808485
 20
260.191309
 30
0.0
 10
62.450500
 20
260.408143
 30
0.0
  0
LINE
  5
130
100
AcDbEntity
  8
Livello_1
 62
5
100
AcDbLine
 10
62.450500
 20
260.408143
 30
0.0
 11
62.450500
 21
266.378907
 31
0.0
  0
LINE
  5
131
100
AcDbEntity
  8
Livello_1
 62
5
100
AcDbLine
 10
62.450500
 20
266.378907
 30
0.0
 11
61.251056
 21
266.378907
 31
0.0
  0
LINE
  5
132
100
AcDbEntity
  8
Livello_1
 62
5
100
AcDbLine
 10
61.251056
 20
266.378907
 30
0.0
 11
61.251056
 21
260.408143
 31
0.0
  0
SPLINE
  5
133
100
AcDbEntity
  8
Livello_1
 62
5
100
AcDbSpline
 70
8
 71
3
 72
8
 73
4
 74
0
 40
0
 40
0
 40
0
 40
0
 40
1
 40
1
 40
1
 40
1
 10
61.251056
 20
260.408143
 30
0.0
 10
60.893071
 20
260.191309
 30
0.0
 10
60.651334
 20
259.786027
 30
0.0
 10
60.651334
 20
259.323352
 30
0.0
  0
LINE
  5
134
100
AcDbEntity
  8
Livello_1
 62
5
100
AcDbLine
 10
60.651334
 20
259.323352
 30
0.0
 11
60.651334
 21
252.920435
 31
0.0
  0
SPLINE
  5
135
100
AcDbEntity
  8
Livello_1
 62
5
100
AcDbSpline
 70
8
 71
3
 72
8
 73
4
 74
0
 40
0
 40
0
 40
0
 40
0
 40
1
 40
1
 40
1
 40
1
 10
60.651334
 20
252.920435
 30
0.0
 10
60.651334
 20
252.476816
 30
0.0
 10
60.873092
 20
252.091935
 30
0.0
 10
61.206959
 20
251.870921
 30
0.0
  0
LINE
  5
136
100
AcDbEntity
  8
Livello_1
 62
5
100
AcDbLine
 10
61.206959
 20
251.870921
 30
0.0
 11
61.206959
 21
250.018838
 31
0.0
  0
LINE
  5
137
100
AcDbEntity
  8
Livello_1
 62
5
100
AcDbLine
 10
61.206959
 20
250.018838
 30
0.0
 11
57.643903
 21
250.018838
 31
0.0
  0
LINE
  5
138
100
AcDbEntity
  8
Livello_1
 62
5
100
AcDbLine
 10
57.643903
 20
250.018838
 30
0.0
 11
57.643903
 21
266.414185
 31
0.0
  0
LINE
  5
139
100
AcDbEntity
  8
Livello_1
 62
5
100
AcDbLine
 10
57.643903
 20
266.414185
 30
0.0
 11
56.444444
 21
266.414165
 31
0.0
  0
ENDSEC
  0
SECTION
  2
OBJECTS
  0
DICTIONARY
  5
C
330
0
100
AcDbDictionary
  3
ACAD_GROUP
350
D
  3
ACAD_MLINESTYLE
350
17
  0
DICTIONARY
  5
D
330
C
100
AcDbDictionary
  0
DICTIONARY
  5
1A
330
C
100
AcDbDictionary
  0
DICTIONARY
  5
17
330
C
100
AcDbDictionary
  3
STANDARD
350
18
  0
DICTIONARY
  5
19
330
C
100
AcDbDictionary
  0
ENDSEC
  0
EOF
